ISO-10303-21;
HEADER;
FILE_DESCRIPTION (( 'STEP AP203' ),
    '1' );
FILE_NAME ('N-SF1-BPBSC-10-620-1000.STEP',
    '2021-01-05T02:13:33',
    ( '' ),
    ( '' ),
    'SwSTEP 2.0',
    'SolidWorks 2020',
    '' );
FILE_SCHEMA (( 'CONFIG_CONTROL_DESIGN' ));
ENDSEC;

DATA;
#1 = CARTESIAN_POINT ( 'NONE',  ( 0.000000000000000000, 0.000000000000000000, 0.000000000000000000 ) ) ;
#2 = ORIENTED_EDGE ( 'NONE', *, *, #121, .F. ) ;
#3 = EDGE_CURVE ( 'NONE', #239, #188, #280, .T. ) ;
#4 = PERSON_AND_ORGANIZATION ( #56, #286 ) ;
#5 = ORIENTED_EDGE ( 'NONE', *, *, #313, .T. ) ;
#6 = ORIENTED_EDGE ( 'NONE', *, *, #76, .T. ) ;
#7 = APPROVAL ( #79, 'UNSPECIFIED' ) ;
#8 = ORIENTED_EDGE ( 'NONE', *, *, #104, .T. ) ;
#9 = APPROVAL_PERSON_ORGANIZATION ( #4, #177, #82 ) ;
#10 = CARTESIAN_POINT ( 'NONE',  ( -5.000000000000000888, -4.999999999999998224, 5.000000000000000000 ) ) ;
#11 = CARTESIAN_POINT ( 'NONE',  ( 5.000000000000000888, 5.000000000000001776, 5.000000000000000000 ) ) ;
#12 = DIRECTION ( 'NONE',  ( -0.7071067811865475727, -0.7071067811865474617, 0.000000000000000000 ) ) ;
#13 = DIRECTION ( 'NONE',  ( 1.000000000000000000, 0.000000000000000000, 0.000000000000000000 ) ) ;
#14 = CARTESIAN_POINT ( 'NONE',  ( -5.000000000000000888, -4.999999999999998224, 5.000000000000000000 ) ) ;
#15 = APPROVAL_DATE_TIME ( #97, #66 ) ;
#16 = LINE ( 'NONE', #67, #203 ) ;
#17 = CARTESIAN_POINT ( 'NONE',  ( 5.000000000000000888, -5.000000000000000000, 5.000000000000000000 ) ) ;
#18 = PERSON_AND_ORGANIZATION_ROLE ( 'creator' ) ;
#19 = CC_DESIGN_PERSON_AND_ORGANIZATION_ASSIGNMENT ( #78, #183, ( #68 ) ) ;
#20 = DIRECTION ( 'NONE',  ( 1.000000000000000000, -4.857225732735059864E-17, 0.000000000000000000 ) ) ;
#21 = APPROVAL_PERSON_ORGANIZATION ( #90, #66, #287 ) ;
#22 = AXIS2_PLACEMENT_3D ( 'NONE', #276, #304, #164 ) ;
#23 = CARTESIAN_POINT ( 'NONE',  ( 0.000000000000000000, 0.000000000000000000, -5.000000000000000000 ) ) ;
#24 = EDGE_CURVE ( 'NONE', #31, #114, #39, .T. ) ;
#25 = CC_DESIGN_PERSON_AND_ORGANIZATION_ASSIGNMENT ( #93, #283, ( #125 ) ) ;
#26 = ORIENTED_EDGE ( 'NONE', *, *, #109, .T. ) ;
#27 = LOCAL_TIME ( 10, 13, 33.00000000000000000, #295 ) ;
#28 = EDGE_LOOP ( 'NONE', ( #162, #300, #84, #5 ) ) ;
#29 = ADVANCED_FACE ( 'NONE', ( #41 ), #215, .F. ) ;
#30 =( NAMED_UNIT ( * ) SI_UNIT ( $, .STERADIAN. ) SOLID_ANGLE_UNIT ( ) );
#31 = VERTEX_POINT ( 'NONE', #10 ) ;
#32 = ADVANCED_FACE ( 'NONE', ( #185 ), #271, .F. ) ;
#33 = DIRECTION ( 'NONE',  ( 2.220446049250313081E-16, 1.000000000000000000, 0.000000000000000000 ) ) ;
#34 = CALENDAR_DATE ( 2021, 5, 1 ) ;
#35 = EDGE_LOOP ( 'NONE', ( #214, #259, #8 ) ) ;
#36 = VERTEX_POINT ( 'NONE', #113 ) ;
#37 = DIRECTION ( 'NONE',  ( -0.000000000000000000, -0.000000000000000000, -1.000000000000000000 ) ) ;
#38 = AXIS2_PLACEMENT_3D ( 'NONE', #264, #195, #314 ) ;
#39 = LINE ( 'NONE', #273, #107 ) ;
#40 = DIRECTION ( 'NONE',  ( 1.000000000000000000, 0.000000000000000000, 0.000000000000000000 ) ) ;
#41 = FACE_OUTER_BOUND ( 'NONE', #254, .T. ) ;
#42 = CALENDAR_DATE ( 2021, 5, 1 ) ;
#43 = CLOSED_SHELL ( 'NONE', ( #86, #29, #49, #163, #32 ) ) ;
#44 = CARTESIAN_POINT ( 'NONE',  ( -4.999999999999999112, -5.000000000000000000, -5.000000000000000000 ) ) ;
#45 = EDGE_CURVE ( 'NONE', #114, #133, #255, .T. ) ;
#46 = PRODUCT_DEFINITION_FORMATION_WITH_SPECIFIED_SOURCE ( 'ANY', '', #106, .NOT_KNOWN. ) ;
#47 = PERSON_AND_ORGANIZATION ( #56, #286 ) ;
#48 = PLANE ( 'NONE',  #319 ) ;
#49 = ADVANCED_FACE ( 'NONE', ( #59 ), #171, .F. ) ;
#50 = LINE ( 'NONE', #221, #202 ) ;
#51 = APPLICATION_CONTEXT ( 'configuration controlled 3d designs of mechanical parts and assemblies' ) ;
#52 = MANIFOLD_SOLID_BREP ( 'Í¹Ì¨-À', #43 ) ;
#53 = PLANE ( 'NONE',  #318 ) ;
#54 = DIRECTION ( 'NONE',  ( 0.000000000000000000, -0.000000000000000000, 1.000000000000000000 ) ) ;
#55 = VECTOR ( 'NONE', #191, 1000.000000000000000 ) ;
#56 = PERSON ( 'UNSPECIFIED', 'UNSPECIFIED', 'UNSPECIFIED', ('UNSPECIFIED'), ('UNSPECIFIED'), ('UNSPECIFIED') ) ;
#57 = VECTOR ( 'NONE', #149, 1000.000000000000000 ) ;
#58 = ORIENTED_EDGE ( 'NONE', *, *, #198, .T. ) ;
#59 = FACE_OUTER_BOUND ( 'NONE', #115, .T. ) ;
#60 = ORIENTED_EDGE ( 'NONE', *, *, #155, .F. ) ;
#61 = DIRECTION ( 'NONE',  ( 0.000000000000000000, 1.000000000000000000, 0.000000000000000000 ) ) ;
#62 = CARTESIAN_POINT ( 'NONE',  ( 5.000000000000000888, 5.000000000000001776, 5.000000000000000000 ) ) ;
#63 = DIRECTION ( 'NONE',  ( -0.000000000000000000, -0.000000000000000000, -1.000000000000000000 ) ) ;
#64 = LOCAL_TIME ( 10, 13, 33.00000000000000000, #213 ) ;
#65 = DIRECTION ( 'NONE',  ( 0.7071067811865474617, -0.7071067811865475727, 0.000000000000000000 ) ) ;
#66 = APPROVAL ( #281, 'UNSPECIFIED' ) ;
#67 = CARTESIAN_POINT ( 'NONE',  ( 5.000000000000000888, 5.000000000000001776, 5.000000000000000000 ) ) ;
#68 = PRODUCT_DEFINITION ( 'UNKNOWN', '', #46, #179 ) ;
#69 = CARTESIAN_POINT ( 'NONE',  ( 5.000000000000002665, 5.000000000000000000, -5.000000000000000000 ) ) ;
#70 = VECTOR ( 'NONE', #63, 1000.000000000000000 ) ;
#71 = CARTESIAN_POINT ( 'NONE',  ( -4.999999999999999112, -5.000000000000000000, -5.000000000000000000 ) ) ;
#72 = COORDINATED_UNIVERSAL_TIME_OFFSET ( 8, 0, .AHEAD. ) ;
#73 = FACE_OUTER_BOUND ( 'NONE', #234, .T. ) ;
#74 = LINE ( 'NONE', #196, #226 ) ;
#75 = ADVANCED_FACE ( 'NONE', ( #306 ), #190, .F. ) ;
#76 = EDGE_CURVE ( 'NONE', #296, #36, #168, .T. ) ;
#77 = AXIS2_PLACEMENT_3D ( 'NONE', #209, #61, #81 ) ;
#78 = PERSON_AND_ORGANIZATION ( #56, #286 ) ;
#79 = APPROVAL_STATUS ( 'not_yet_approved' ) ;
#80 = ORIENTED_EDGE ( 'NONE', *, *, #121, .T. ) ;
#81 = DIRECTION ( 'NONE',  ( 0.000000000000000000, -0.000000000000000000, 1.000000000000000000 ) ) ;
#82 = APPROVAL_ROLE ( '' ) ;
#83 = ORIENTED_EDGE ( 'NONE', *, *, #129, .T. ) ;
#84 = ORIENTED_EDGE ( 'NONE', *, *, #158, .F. ) ;
#85 = CARTESIAN_POINT ( 'NONE',  ( -5.000000000000000888, -4.999999999999998224, -5.000000000000000000 ) ) ;
#86 = ADVANCED_FACE ( 'NONE', ( #217 ), #192, .F. ) ;
#87 = DIRECTION ( 'NONE',  ( -0.000000000000000000, 0.000000000000000000, 1.000000000000000000 ) ) ;
#88 = DIRECTION ( 'NONE',  ( 2.220446049250313081E-16, 1.000000000000000000, 0.000000000000000000 ) ) ;
#89 = CARTESIAN_POINT ( 'NONE',  ( 5.000000000000002665, 5.000000000000000000, 5.000000000000000000 ) ) ;
#90 = PERSON_AND_ORGANIZATION ( #56, #286 ) ;
#91 = ORIENTED_EDGE ( 'NONE', *, *, #3, .T. ) ;
#92 = ADVANCED_FACE ( 'NONE', ( #96 ), #48, .T. ) ;
#93 = PERSON_AND_ORGANIZATION ( #56, #286 ) ;
#94 = FACE_OUTER_BOUND ( 'NONE', #35, .T. ) ;
#95 = ADVANCED_FACE ( 'NONE', ( #175 ), #265, .F. ) ;
#96 = FACE_OUTER_BOUND ( 'NONE', #160, .T. ) ;
#97 = DATE_AND_TIME ( #42, #141 ) ;
#98 = VECTOR ( 'NONE', #139, 1000.000000000000000 ) ;
#99 = LINE ( 'NONE', #103, #131 ) ;
#100 = CC_DESIGN_APPROVAL ( #177, ( #46 ) ) ;
#101 = LINE ( 'NONE', #14, #130 ) ;
#102 = UNCERTAINTY_MEASURE_WITH_UNIT (LENGTH_MEASURE( 1.000000000000000082E-05 ), #233, 'distance_accuracy_value', 'NONE');
#103 = CARTESIAN_POINT ( 'NONE',  ( 5.000000000000000888, 5.000000000000001776, 5.000000000000000000 ) ) ;
#104 = EDGE_CURVE ( 'NONE', #135, #157, #148, .T. ) ;
#105 = EDGE_CURVE ( 'NONE', #188, #212, #317, .T. ) ;
#106 = PRODUCT ( 'N-SF1-BPBSC-10-620-1000', 'N-SF1-BPBSC-10-620-1000', '', ( #165 ) ) ;
#107 = VECTOR ( 'NONE', #33, 1000.000000000000000 ) ;
#108 = PRODUCT_DEFINITION_SHAPE ( 'NONE', 'NONE',  #68 ) ;
#109 = EDGE_CURVE ( 'NONE', #114, #272, #74, .T. ) ;
#110 = EDGE_LOOP ( 'NONE', ( #138, #208, #144, #83 ) ) ;
#111 = EDGE_LOOP ( 'NONE', ( #321, #248, #60 ) ) ;
#112 = ORIENTED_EDGE ( 'NONE', *, *, #129, .F. ) ;
#113 = CARTESIAN_POINT ( 'NONE',  ( -5.000000000000000888, -4.999999999999998224, -5.000000000000000000 ) ) ;
#114 = VERTEX_POINT ( 'NONE', #224 ) ;
#115 = EDGE_LOOP ( 'NONE', ( #91, #258, #194, #252 ) ) ;
#116 = APPROVAL_DATE_TIME ( #303, #177 ) ;
#117 = SECURITY_CLASSIFICATION_LEVEL ( 'unclassified' ) ;
#118 = CARTESIAN_POINT ( 'NONE',  ( 0.000000000000000000, 0.000000000000000000, -5.000000000000000000 ) ) ;
#119 = VECTOR ( 'NONE', #156, 1000.000000000000000 ) ;
#120 = DIRECTION ( 'NONE',  ( 1.000000000000000000, 0.000000000000000000, 0.000000000000000000 ) ) ;
#121 = EDGE_CURVE ( 'NONE', #133, #296, #310, .T. ) ;
#122 = DIRECTION ( 'NONE',  ( -0.7071067811865475727, -0.7071067811865474617, 0.000000000000000000 ) ) ;
#123 = SHAPE_DEFINITION_REPRESENTATION ( #108, #293 ) ;
#124 = DIRECTION ( 'NONE',  ( -0.7071067811865475727, -0.7071067811865474617, 0.000000000000000000 ) ) ;
#125 = SECURITY_CLASSIFICATION ( '', '', #117 ) ;
#126 = CARTESIAN_POINT ( 'NONE',  ( -5.000000000000000888, -4.999999999999998224, 5.000000000000000000 ) ) ;
#127 = CC_DESIGN_DATE_AND_TIME_ASSIGNMENT ( #307, #244, ( #125 ) ) ;
#128 = LINE ( 'NONE', #44, #291 ) ;
#129 = EDGE_CURVE ( 'NONE', #31, #36, #101, .T. ) ;
#130 = VECTOR ( 'NONE', #247, 1000.000000000000000 ) ;
#131 = VECTOR ( 'NONE', #199, 1000.000000000000000 ) ;
#132 = DIRECTION ( 'NONE',  ( 2.220446049250313081E-16, 1.000000000000000000, 0.000000000000000000 ) ) ;
#133 = VERTEX_POINT ( 'NONE', #288 ) ;
#134 = LINE ( 'NONE', #85, #197 ) ;
#135 = VERTEX_POINT ( 'NONE', #17 ) ;
#136 = ORIENTED_EDGE ( 'NONE', *, *, #181, .F. ) ;
#137 = CALENDAR_DATE ( 2021, 5, 1 ) ;
#138 = ORIENTED_EDGE ( 'NONE', *, *, #76, .F. ) ;
#139 = DIRECTION ( 'NONE',  ( 1.734723475976807094E-16, 1.000000000000000000, -0.000000000000000000 ) ) ;
#140 = APPLICATION_PROTOCOL_DEFINITION ( 'international standard', 'config_control_design', 1994, #266 ) ;
#141 = LOCAL_TIME ( 10, 13, 33.00000000000000000, #72 ) ;
#142 = DIRECTION ( 'NONE',  ( -4.857225732735059864E-17, -1.000000000000000000, 0.000000000000000000 ) ) ;
#143 = PRODUCT_RELATED_PRODUCT_CATEGORY ( 'detail', '', ( #106 ) ) ;
#144 = ORIENTED_EDGE ( 'NONE', *, *, #181, .T. ) ;
#145 = EDGE_CURVE ( 'NONE', #270, #135, #261, .T. ) ;
#146 = ORIENTED_EDGE ( 'NONE', *, *, #45, .T. ) ;
#147 =( GEOMETRIC_REPRESENTATION_CONTEXT ( 3 ) GLOBAL_UNCERTAINTY_ASSIGNED_CONTEXT ( ( #102 ) ) GLOBAL_UNIT_ASSIGNED_CONTEXT ( ( #233, #305, #30 ) ) REPRESENTATION_CONTEXT ( 'NONE', 'WORKASPACE' ) );
#148 = LINE ( 'NONE', #173, #57 ) ;
#149 = DIRECTION ( 'NONE',  ( 1.734723475976807094E-16, 1.000000000000000000, -0.000000000000000000 ) ) ;
#150 = COORDINATED_UNIVERSAL_TIME_OFFSET ( 8, 0, .AHEAD. ) ;
#151 = FACE_OUTER_BOUND ( 'NONE', #231, .T. ) ;
#152 = VECTOR ( 'NONE', #218, 1000.000000000000000 ) ;
#153 = AXIS2_PLACEMENT_3D ( 'NONE', #89, #65, #311 ) ;
#154 = DIRECTION ( 'NONE',  ( -0.7071067811865474617, 0.7071067811865475727, 0.000000000000000000 ) ) ;
#155 = EDGE_CURVE ( 'NONE', #212, #239, #128, .T. ) ;
#156 = DIRECTION ( 'NONE',  ( 1.000000000000000000, -4.857225732735059864E-17, 0.000000000000000000 ) ) ;
#157 = VERTEX_POINT ( 'NONE', #178 ) ;
#158 = EDGE_CURVE ( 'NONE', #157, #270, #50, .T. ) ;
#159 = COORDINATED_UNIVERSAL_TIME_OFFSET ( 8, 0, .AHEAD. ) ;
#160 = EDGE_LOOP ( 'NONE', ( #136, #251, #232 ) ) ;
#161 = DIRECTION ( 'NONE',  ( 0.000000000000000000, 0.000000000000000000, 1.000000000000000000 ) ) ;
#162 = ORIENTED_EDGE ( 'NONE', *, *, #105, .T. ) ;
#163 = ADVANCED_FACE ( 'NONE', ( #94 ), #262, .T. ) ;
#164 = DIRECTION ( 'NONE',  ( -1.734723475976807094E-16, -1.000000000000000000, 0.000000000000000000 ) ) ;
#165 = MECHANICAL_CONTEXT ( 'NONE', #51, 'mechanical' ) ;
#166 = EDGE_LOOP ( 'NONE', ( #2, #228, #26, #58 ) ) ;
#167 = ORIENTED_EDGE ( 'NONE', *, *, #299, .T. ) ;
#168 = LINE ( 'NONE', #237, #278 ) ;
#169 = AXIS2_PLACEMENT_3D ( 'NONE', #118, #87, #13 ) ;
#170 = LINE ( 'NONE', #257, #174 ) ;
#171 = PLANE ( 'NONE',  #22 ) ;
#172 = CARTESIAN_POINT ( 'NONE',  ( 5.000000000000002665, 5.000000000000000000, -5.000000000000000000 ) ) ;
#173 = CARTESIAN_POINT ( 'NONE',  ( 5.000000000000002665, 5.000000000000000000, 5.000000000000000000 ) ) ;
#174 = VECTOR ( 'NONE', #37, 1000.000000000000000 ) ;
#175 = FACE_OUTER_BOUND ( 'NONE', #110, .T. ) ;
#176 = DIRECTION ( 'NONE',  ( 0.7071067811865475727, 0.7071067811865474617, 0.000000000000000000 ) ) ;
#177 = APPROVAL ( #298, 'UNSPECIFIED' ) ;
#178 = CARTESIAN_POINT ( 'NONE',  ( 5.000000000000002665, 5.000000000000000000, 5.000000000000000000 ) ) ;
#179 = DESIGN_CONTEXT ( 'detailed design', #266, 'design' ) ;
#180 = DIRECTION ( 'NONE',  ( 2.220446049250313081E-16, 1.000000000000000000, 0.000000000000000000 ) ) ;
#181 = EDGE_CURVE ( 'NONE', #272, #31, #16, .T. ) ;
#182 = CARTESIAN_POINT ( 'NONE',  ( 5.000000000000000888, 5.000000000000001776, -5.000000000000000000 ) ) ;
#183 = PERSON_AND_ORGANIZATION_ROLE ( 'creator' ) ;
#184 = ORIENTED_EDGE ( 'NONE', *, *, #155, .T. ) ;
#185 = FACE_OUTER_BOUND ( 'NONE', #111, .T. ) ;
#186 = DATE_AND_TIME ( #269, #235 ) ;
#187 = ORIENTED_EDGE ( 'NONE', *, *, #292, .F. ) ;
#188 = VERTEX_POINT ( 'NONE', #69 ) ;
#189 = CARTESIAN_POINT ( 'NONE',  ( 5.000000000000002665, 5.000000000000000000, 5.000000000000000000 ) ) ;
#190 = PLANE ( 'NONE',  #205 ) ;
#191 = DIRECTION ( 'NONE',  ( -0.000000000000000000, -0.000000000000000000, -1.000000000000000000 ) ) ;
#192 = PLANE ( 'NONE',  #153 ) ;
#193 = AXIS2_PLACEMENT_3D ( 'NONE', #220, #154, #176 ) ;
#194 = ORIENTED_EDGE ( 'NONE', *, *, #104, .F. ) ;
#195 = DIRECTION ( 'NONE',  ( -0.000000000000000000, 0.000000000000000000, 1.000000000000000000 ) ) ;
#196 = CARTESIAN_POINT ( 'NONE',  ( 5.000000000000000888, 5.000000000000001776, 5.000000000000000000 ) ) ;
#197 = VECTOR ( 'NONE', #88, 1000.000000000000000 ) ;
#198 = EDGE_CURVE ( 'NONE', #272, #296, #99, .T. ) ;
#199 = DIRECTION ( 'NONE',  ( -0.000000000000000000, 0.000000000000000000, -1.000000000000000000 ) ) ;
#200 = DIRECTION ( 'NONE',  ( 0.000000000000000000, 0.000000000000000000, 1.000000000000000000 ) ) ;
#201 = DIRECTION ( 'NONE',  ( 0.000000000000000000, -0.000000000000000000, 1.000000000000000000 ) ) ;
#202 = VECTOR ( 'NONE', #241, 1000.000000000000000 ) ;
#203 = VECTOR ( 'NONE', #122, 1000.000000000000000 ) ;
#204 = CC_DESIGN_PERSON_AND_ORGANIZATION_ASSIGNMENT ( #47, #312, ( #46 ) ) ;
#205 = AXIS2_PLACEMENT_3D ( 'NONE', #62, #142, #277 ) ;
#206 = PERSON_AND_ORGANIZATION ( #56, #286 ) ;
#207 = CARTESIAN_POINT ( 'NONE',  ( -4.999999999999999112, -5.000000000000000000, 5.000000000000000000 ) ) ;
#208 = ORIENTED_EDGE ( 'NONE', *, *, #198, .F. ) ;
#209 = CARTESIAN_POINT ( 'NONE',  ( -4.999999999999999112, -5.000000000000000000, 5.000000000000000000 ) ) ;
#210 = APPROVAL_DATE_TIME ( #236, #7 ) ;
#211 = ORIENTED_EDGE ( 'NONE', *, *, #145, .F. ) ;
#212 = VERTEX_POINT ( 'NONE', #71 ) ;
#213 = COORDINATED_UNIVERSAL_TIME_OFFSET ( 8, 0, .AHEAD. ) ;
#214 = ORIENTED_EDGE ( 'NONE', *, *, #158, .T. ) ;
#215 = PLANE ( 'NONE',  #77 ) ;
#216 = PERSON_AND_ORGANIZATION ( #56, #286 ) ;
#217 = FACE_OUTER_BOUND ( 'NONE', #28, .T. ) ;
#218 = DIRECTION ( 'NONE',  ( -0.000000000000000000, 0.000000000000000000, -1.000000000000000000 ) ) ;
#219 = AXIS2_PLACEMENT_3D ( 'NONE', #1, #161, #40 ) ;
#220 = CARTESIAN_POINT ( 'NONE',  ( 5.000000000000000888, 5.000000000000001776, 5.000000000000000000 ) ) ;
#221 = CARTESIAN_POINT ( 'NONE',  ( 5.000000000000002665, 5.000000000000000000, 5.000000000000000000 ) ) ;
#222 = CC_DESIGN_APPROVAL ( #7, ( #68 ) ) ;
#223 = DIRECTION ( 'NONE',  ( 1.000000000000000000, -2.220446049250313081E-16, 0.000000000000000000 ) ) ;
#224 = CARTESIAN_POINT ( 'NONE',  ( -4.999999999999999112, 5.000000000000001776, 5.000000000000000000 ) ) ;
#225 = PERSON_AND_ORGANIZATION ( #56, #286 ) ;
#226 = VECTOR ( 'NONE', #20, 1000.000000000000000 ) ;
#227 = CARTESIAN_POINT ( 'NONE',  ( -4.999999999999999112, -5.000000000000000000, 5.000000000000000000 ) ) ;
#228 = ORIENTED_EDGE ( 'NONE', *, *, #45, .F. ) ;
#229 = ADVANCED_FACE ( 'NONE', ( #151 ), #245, .F. ) ;
#230 = LINE ( 'NONE', #189, #55 ) ;
#231 = EDGE_LOOP ( 'NONE', ( #187, #112, #297, #146 ) ) ;
#232 = ORIENTED_EDGE ( 'NONE', *, *, #24, .F. ) ;
#233 =( LENGTH_UNIT ( ) NAMED_UNIT ( * ) SI_UNIT ( .MILLI., .METRE. ) );
#234 = EDGE_LOOP ( 'NONE', ( #6, #238, #80 ) ) ;
#235 = LOCAL_TIME ( 10, 13, 33.00000000000000000, #159 ) ;
#236 = DATE_AND_TIME ( #34, #27 ) ;
#237 = CARTESIAN_POINT ( 'NONE',  ( 5.000000000000000888, 5.000000000000001776, -5.000000000000000000 ) ) ;
#238 = ORIENTED_EDGE ( 'NONE', *, *, #292, .T. ) ;
#239 = VERTEX_POINT ( 'NONE', #289 ) ;
#240 = VECTOR ( 'NONE', #124, 1000.000000000000000 ) ;
#241 = DIRECTION ( 'NONE',  ( -0.7071067811865475727, -0.7071067811865474617, 0.000000000000000000 ) ) ;
#242 = CC_DESIGN_PERSON_AND_ORGANIZATION_ASSIGNMENT ( #225, #320, ( #106 ) ) ;
#243 = CARTESIAN_POINT ( 'NONE',  ( 5.000000000000002665, 5.000000000000000000, -5.000000000000000000 ) ) ;
#244 = DATE_TIME_ROLE ( 'classification_date' ) ;
#245 = PLANE ( 'NONE',  #256 ) ;
#246 = CC_DESIGN_SECURITY_CLASSIFICATION ( #125, ( #46 ) ) ;
#247 = DIRECTION ( 'NONE',  ( -0.000000000000000000, 0.000000000000000000, -1.000000000000000000 ) ) ;
#248 = ORIENTED_EDGE ( 'NONE', *, *, #3, .F. ) ;
#249 = APPLICATION_PROTOCOL_DEFINITION ( 'international standard', 'config_control_design', 1994, #51 ) ;
#250 = DATE_TIME_ROLE ( 'creation_date' ) ;
#251 = ORIENTED_EDGE ( 'NONE', *, *, #109, .F. ) ;
#252 = ORIENTED_EDGE ( 'NONE', *, *, #309, .T. ) ;
#253 = MANIFOLD_SOLID_BREP ( '¾µÏ', #285 ) ;
#254 = EDGE_LOOP ( 'NONE', ( #184, #294, #211, #167 ) ) ;
#255 = LINE ( 'NONE', #302, #152 ) ;
#256 = AXIS2_PLACEMENT_3D ( 'NONE', #126, #223, #200 ) ;
#257 = CARTESIAN_POINT ( 'NONE',  ( 5.000000000000000888, -5.000000000000000000, 5.000000000000000000 ) ) ;
#258 = ORIENTED_EDGE ( 'NONE', *, *, #313, .F. ) ;
#259 = ORIENTED_EDGE ( 'NONE', *, *, #145, .T. ) ;
#260 = ADVANCED_FACE ( 'NONE', ( #73 ), #53, .F. ) ;
#261 = LINE ( 'NONE', #263, #308 ) ;
#262 = PLANE ( 'NONE',  #38 ) ;
#263 = CARTESIAN_POINT ( 'NONE',  ( -4.999999999999999112, -5.000000000000000000, 5.000000000000000000 ) ) ;
#264 = CARTESIAN_POINT ( 'NONE',  ( 0.000000000000000000, 0.000000000000000000, 5.000000000000000000 ) ) ;
#265 = PLANE ( 'NONE',  #193 ) ;
#266 = APPLICATION_CONTEXT ( 'configuration controlled 3d designs of mechanical parts and assemblies' ) ;
#267 = LOCAL_TIME ( 10, 13, 33.00000000000000000, #150 ) ;
#268 = LINE ( 'NONE', #227, #70 ) ;
#269 = CALENDAR_DATE ( 2021, 5, 1 ) ;
#270 = VERTEX_POINT ( 'NONE', #207 ) ;
#271 = PLANE ( 'NONE',  #169 ) ;
#272 = VERTEX_POINT ( 'NONE', #11 ) ;
#273 = CARTESIAN_POINT ( 'NONE',  ( -5.000000000000000888, -4.999999999999998224, 5.000000000000000000 ) ) ;
#274 = APPROVAL_ROLE ( '' ) ;
#275 = CC_DESIGN_DATE_AND_TIME_ASSIGNMENT ( #186, #250, ( #68 ) ) ;
#276 = CARTESIAN_POINT ( 'NONE',  ( 5.000000000000002665, 5.000000000000000000, 5.000000000000000000 ) ) ;
#277 = DIRECTION ( 'NONE',  ( -1.000000000000000000, 4.857225732735059864E-17, 0.000000000000000000 ) ) ;
#278 = VECTOR ( 'NONE', #12, 1000.000000000000000 ) ;
#279 = CALENDAR_DATE ( 2021, 5, 1 ) ;
#280 = LINE ( 'NONE', #172, #98 ) ;
#281 = APPROVAL_STATUS ( 'not_yet_approved' ) ;
#282 = CARTESIAN_POINT ( 'NONE',  ( 0.000000000000000000, 0.000000000000000000, 5.000000000000000000 ) ) ;
#283 = PERSON_AND_ORGANIZATION_ROLE ( 'classification_officer' ) ;
#284 = CARTESIAN_POINT ( 'NONE',  ( 5.000000000000000888, 5.000000000000001776, -5.000000000000000000 ) ) ;
#285 = CLOSED_SHELL ( 'NONE', ( #95, #229, #75, #92, #260 ) ) ;
#286 = ORGANIZATION ( 'UNSPECIFIED', 'UNSPECIFIED', '' ) ;
#287 = APPROVAL_ROLE ( '' ) ;
#288 = CARTESIAN_POINT ( 'NONE',  ( -4.999999999999999112, 5.000000000000001776, -5.000000000000000000 ) ) ;
#289 = CARTESIAN_POINT ( 'NONE',  ( 5.000000000000000888, -5.000000000000000000, -5.000000000000000000 ) ) ;
#290 = DIRECTION ( 'NONE',  ( 1.000000000000000000, 0.000000000000000000, 0.000000000000000000 ) ) ;
#291 = VECTOR ( 'NONE', #290, 1000.000000000000000 ) ;
#292 = EDGE_CURVE ( 'NONE', #36, #133, #134, .T. ) ;
#293 = ADVANCED_BREP_SHAPE_REPRESENTATION ( 'N-SF1-BPBSC-10-620-1000', ( #52, #253, #219 ), #147 ) ;
#294 = ORIENTED_EDGE ( 'NONE', *, *, #309, .F. ) ;
#295 = COORDINATED_UNIVERSAL_TIME_OFFSET ( 8, 0, .AHEAD. ) ;
#296 = VERTEX_POINT ( 'NONE', #182 ) ;
#297 = ORIENTED_EDGE ( 'NONE', *, *, #24, .T. ) ;
#298 = APPROVAL_STATUS ( 'not_yet_approved' ) ;
#299 = EDGE_CURVE ( 'NONE', #270, #212, #268, .T. ) ;
#300 = ORIENTED_EDGE ( 'NONE', *, *, #299, .F. ) ;
#301 = APPROVAL_PERSON_ORGANIZATION ( #206, #7, #274 ) ;
#302 = CARTESIAN_POINT ( 'NONE',  ( -4.999999999999999112, 5.000000000000001776, 5.000000000000000000 ) ) ;
#303 = DATE_AND_TIME ( #137, #64 ) ;
#304 = DIRECTION ( 'NONE',  ( -1.000000000000000000, 1.734723475976807094E-16, 0.000000000000000000 ) ) ;
#305 =( NAMED_UNIT ( * ) PLANE_ANGLE_UNIT ( ) SI_UNIT ( $, .RADIAN. ) );
#306 = FACE_OUTER_BOUND ( 'NONE', #166, .T. ) ;
#307 = DATE_AND_TIME ( #279, #267 ) ;
#308 = VECTOR ( 'NONE', #120, 1000.000000000000000 ) ;
#309 = EDGE_CURVE ( 'NONE', #135, #239, #170, .T. ) ;
#310 = LINE ( 'NONE', #284, #119 ) ;
#311 = DIRECTION ( 'NONE',  ( 0.7071067811865475727, 0.7071067811865474617, 0.000000000000000000 ) ) ;
#312 = PERSON_AND_ORGANIZATION_ROLE ( 'design_supplier' ) ;
#313 = EDGE_CURVE ( 'NONE', #157, #188, #230, .T. ) ;
#314 = DIRECTION ( 'NONE',  ( 1.000000000000000000, 0.000000000000000000, 0.000000000000000000 ) ) ;
#315 = CC_DESIGN_APPROVAL ( #66, ( #125 ) ) ;
#316 = CC_DESIGN_PERSON_AND_ORGANIZATION_ASSIGNMENT ( #216, #18, ( #46 ) ) ;
#317 = LINE ( 'NONE', #243, #240 ) ;
#318 = AXIS2_PLACEMENT_3D ( 'NONE', #23, #201, #132 ) ;
#319 = AXIS2_PLACEMENT_3D ( 'NONE', #282, #54, #180 ) ;
#320 = PERSON_AND_ORGANIZATION_ROLE ( 'design_owner' ) ;
#321 = ORIENTED_EDGE ( 'NONE', *, *, #105, .F. ) ;
ENDSEC;
END-ISO-10303-21;
